  0
SECTION
  2
HEADER
  9
$ACADVER
  1
AC1009
  9
$FILLMODE
 70
1
  9
$EXTMIN
 10
0.0000
 20
0.0000
 30
0.0000
  9
$EXTMAX
 10
100.0000
 20
100.0000
 30
0.0000
  0
ENDSEC
  0
SECTION
  2
TABLES
  0
TABLE
  2
LTYPE
 70
1
  0
LTYPE
  2
CONTINUOUS
 70
64
  3
Solid line
 72
65
 73
0
 40
0
  0
ENDTAB
  0
TABLE
  2
LAYER
 70
255
  0
LAYER
  2
20
 70
64
 62
7
  6
CONTINUOUS
  0
ENDTAB
  0
ENDSEC
  0
SECTION
  2
BLOCKS
  0
BLOCK
  8
0
  2
RECT
 70
64
 10
0.0000
 20
0.0000
 30
0.0000
  3
RECT
  0
SOLID
  8
0
 10
-0.5000
 20
-0.5000
 30
0.0000
 11
0.5000
 21
-0.5000
 31
0.0000
 12
-0.5000
 22
0.5000
 32
0.0000
 13
0.5000
 23
0.5000
 33
0.0000
  0
ENDBLK
  8
0
  0
BLOCK
  8
0
  2
PIE
 70
64
 10
0.0000
 20
0.0000
 30
0.0000
  3
PIE
  0
POLYLINE
  8
0
 66
1
 10
0.0000
 20
0.0000
 30
0.0000
 40
0.5000
 41
0.5000
 70
0
  0
VERTEX
  8
0
 10
0.0000
 20
-0.2500
 30
0.0000
 42
1.0000
  0
VERTEX
  8
0
 10
0.0000
 20
0.2500
 30
0.0000
 42
1.0000
  0
VERTEX
  8
0
 10
0.0000
 20
-0.2500
 30
0.0000
  0
SEQEND
  8
0
  0
ENDBLK
  8
0
  0
BLOCK
  8
0
  2
OCTAGONP
 70
64
 10
0.0000
 20
0.0000
 30
0.0000
  3
OCTAGONP
  0
POLYLINE
  8
0
 66
1
 10
0.0000
 20
0.0000
 30
0.0000
 40
0.5000
 41
0.5000
 70
0
  0
VERTEX
  8
0
 10
-0.2500
 20
-0.1036
 30
0.0000
  0
VERTEX
  8
0
 10
-0.2500
 20
0.1036
 30
0.0000
  0
VERTEX
  8
0
 10
-0.1036
 20
0.2500
 30
0.0000
  0
VERTEX
  8
0
 10
0.1036
 20
0.2500
 30
0.0000
  0
VERTEX
  8
0
 10
0.2500
 20
0.1036
 30
0.0000
  0
VERTEX
  8
0
 10
0.2500
 20
-0.1036
 30
0.0000
  0
VERTEX
  8
0
 10
0.1036
 20
-0.2500
 30
0.0000
  0
VERTEX
  8
0
 10
-0.1036
 20
-0.2500
 30
0.0000
  0
VERTEX
  8
0
 10
-0.2500
 20
-0.1036
 30
0.0000
  0
VERTEX
  8
0
 10
-0.2500
 20
0.1036
 30
0.0000
  0
SEQEND
  8
0
  0
ENDBLK
  8
0
  0
BLOCK
  8
0
  2
SQUAREP
 70
64
 10
0.0000
 20
0.0000
 30
0.0000
  3
SQUAREP
  0
SOLID
  8
0
 10
-0.5000
 20
-0.5000
 30
0.0000
 11
0.5000
 21
-0.5000
 31
0.0000
 12
-0.5000
 22
0.5000
 32
0.0000
 13
0.5000
 23
0.5000
 33
0.0000
  0
ENDBLK
  8
0
  0
BLOCK
  8
0
  2
ROUNDP
 70
64
 10
0.0000
 20
0.0000
 30
0.0000
  3
ROUNDP
  0
POLYLINE
  8
0
 66
1
 10
0.0000
 20
0.0000
 30
0.0000
 40
0.5000
 41
0.5000
 70
0
  0
VERTEX
  8
0
 10
0.0000
 20
-0.2500
 30
0.0000
 42
1.0000
  0
VERTEX
  8
0
 10
0.0000
 20
0.2500
 30
0.0000
 42
1.0000
  0
VERTEX
  8
0
 10
0.0000
 20
-0.2500
 30
0.0000
  0
SEQEND
  8
0
  0
ENDBLK
  8
0
  0
BLOCK
  8
0
  2
ANNULUSP
 70
64
 10
0.0000
 20
0.0000
 30
0.0000
  3
ANNULUSP
  0
POLYLINE
  8
0
 66
1
 10
0.0000
 20
0.0000
 30
0.0000
 40
0.5000
 41
0.5000
 70
0
  0
VERTEX
  8
0
 10
0.0000
 20
-0.2500
 30
0.0000
 42
1.0000
  0
VERTEX
  8
0
 10
0.0000
 20
0.2500
 30
0.0000
 42
1.0000
  0
VERTEX
  8
0
 10
0.0000
 20
-0.2500
 30
0.0000
  0
SEQEND
  8
0
  0
ENDBLK
  8
0
  0
BLOCK
  8
0
  2
THERMALP
 70
64
 10
0.0000
 20
0.0000
 30
0.0000
  3
THERMALP
  0
POLYLINE
  8
0
 66
1
 10
0.0000
 20
0.0000
 30
0.0000
 40
0.1000
 41
0.1000
 70
0
  0
VERTEX
  8
0
 10
-0.2379
 20
0.4500
 30
0.0000
  0
VERTEX
  8
0
 10
0.2379
 20
0.4500
 30
0.0000
  0
SEQEND
  8
0
  0
POLYLINE
  8
0
 66
1
 10
0.0000
 20
0.0000
 30
0.0000
 40
0.0500
 41
0.0500
 70
0
  0
VERTEX
  8
0
 10
0.2379
 20
0.4250
 30
0.0000
 42
1.0000
  0
VERTEX
  8
0
 10
0.2379
 20
0.4750
 30
0.0000
  0
SEQEND
  8
0
  0
POLYLINE
  8
0
 66
1
 10
0.0000
 20
0.0000
 30
0.0000
 40
0.0500
 41
0.0500
 70
0
  0
VERTEX
  8
0
 10
-0.2379
 20
0.4750
 30
0.0000
 42
1.0000
  0
VERTEX
  8
0
 10
-0.2379
 20
0.4250
 30
0.0000
  0
SEQEND
  8
0
  0
POLYLINE
  8
0
 66
1
 10
0.0000
 20
0.0000
 30
0.0000
 40
0.1000
 41
0.1000
 70
0
  0
VERTEX
  8
0
 10
0.4500
 20
0.2379
 30
0.0000
  0
VERTEX
  8
0
 10
0.4500
 20
-0.2379
 30
0.0000
  0
SEQEND
  8
0
  0
POLYLINE
  8
0
 66
1
 10
0.0000
 20
0.0000
 30
0.0000
 40
0.0500
 41
0.0500
 70
0
  0
VERTEX
  8
0
 10
0.4250
 20
-0.2379
 30
0.0000
 42
1.0000
  0
VERTEX
  8
0
 10
0.4750
 20
-0.2379
 30
0.0000
  0
SEQEND
  8
0
  0
POLYLINE
  8
0
 66
1
 10
0.0000
 20
0.0000
 30
0.0000
 40
0.0500
 41
0.0500
 70
0
  0
VERTEX
  8
0
 10
0.4750
 20
0.2379
 30
0.0000
 42
1.0000
  0
VERTEX
  8
0
 10
0.4250
 20
0.2379
 30
0.0000
  0
SEQEND
  8
0
  0
POLYLINE
  8
0
 66
1
 10
0.0000
 20
0.0000
 30
0.0000
 40
0.1000
 41
0.1000
 70
0
  0
VERTEX
  8
0
 10
0.2379
 20
-0.4500
 30
0.0000
  0
VERTEX
  8
0
 10
-0.2379
 20
-0.4500
 30
0.0000
  0
SEQEND
  8
0
  0
POLYLINE
  8
0
 66
1
 10
0.0000
 20
0.0000
 30
0.0000
 40
0.0500
 41
0.0500
 70
0
  0
VERTEX
  8
0
 10
-0.2379
 20
-0.4250
 30
0.0000
 42
1.0000
  0
VERTEX
  8
0
 10
-0.2379
 20
-0.4750
 30
0.0000
  0
SEQEND
  8
0
  0
POLYLINE
  8
0
 66
1
 10
0.0000
 20
0.0000
 30
0.0000
 40
0.0500
 41
0.0500
 70
0
  0
VERTEX
  8
0
 10
0.2379
 20
-0.4750
 30
0.0000
 42
1.0000
  0
VERTEX
  8
0
 10
0.2379
 20
-0.4250
 30
0.0000
  0
SEQEND
  8
0
  0
POLYLINE
  8
0
 66
1
 10
0.0000
 20
0.0000
 30
0.0000
 40
0.1000
 41
0.1000
 70
0
  0
VERTEX
  8
0
 10
-0.4500
 20
-0.2379
 30
0.0000
  0
VERTEX
  8
0
 10
-0.4500
 20
0.2379
 30
0.0000
  0
SEQEND
  8
0
  0
POLYLINE
  8
0
 66
1
 10
0.0000
 20
0.0000
 30
0.0000
 40
0.0500
 41
0.0500
 70
0
  0
VERTEX
  8
0
 10
-0.4250
 20
0.2379
 30
0.0000
 42
1.0000
  0
VERTEX
  8
0
 10
-0.4750
 20
0.2379
 30
0.0000
  0
SEQEND
  8
0
  0
POLYLINE
  8
0
 66
1
 10
0.0000
 20
0.0000
 30
0.0000
 40
0.0500
 41
0.0500
 70
0
  0
VERTEX
  8
0
 10
-0.4750
 20
-0.2379
 30
0.0000
 42
1.0000
  0
VERTEX
  8
0
 10
-0.4250
 20
-0.2379
 30
0.0000
  0
SEQEND
  8
0
  0
ENDBLK
  8
0
  0
BLOCK
  8
0
  2
OCTAGONV
 70
64
 10
0.0000
 20
0.0000
 30
0.0000
  3
OCTAGONV
  0
POLYLINE
  8
0
 66
1
 10
0.0000
 20
0.0000
 30
0.0000
 40
0.5000
 41
0.5000
 70
0
  0
VERTEX
  8
0
 10
-0.2500
 20
-0.1036
 30
0.0000
  0
VERTEX
  8
0
 10
-0.2500
 20
0.1036
 30
0.0000
  0
VERTEX
  8
0
 10
-0.1036
 20
0.2500
 30
0.0000
  0
VERTEX
  8
0
 10
0.1036
 20
0.2500
 30
0.0000
  0
VERTEX
  8
0
 10
0.2500
 20
0.1036
 30
0.0000
  0
VERTEX
  8
0
 10
0.2500
 20
-0.1036
 30
0.0000
  0
VERTEX
  8
0
 10
0.1036
 20
-0.2500
 30
0.0000
  0
VERTEX
  8
0
 10
-0.1036
 20
-0.2500
 30
0.0000
  0
VERTEX
  8
0
 10
-0.2500
 20
-0.1036
 30
0.0000
  0
VERTEX
  8
0
 10
-0.2500
 20
0.1036
 30
0.0000
  0
SEQEND
  8
0
  0
ENDBLK
  8
0
  0
BLOCK
  8
0
  2
SQUAREV
 70
64
 10
0.0000
 20
0.0000
 30
0.0000
  3
SQUAREV
  0
SOLID
  8
0
 10
-0.5000
 20
-0.5000
 30
0.0000
 11
0.5000
 21
-0.5000
 31
0.0000
 12
-0.5000
 22
0.5000
 32
0.0000
 13
0.5000
 23
0.5000
 33
0.0000
  0
ENDBLK
  8
0
  0
BLOCK
  8
0
  2
ROUNDV
 70
64
 10
0.0000
 20
0.0000
 30
0.0000
  3
ROUNDV
  0
POLYLINE
  8
0
 66
1
 10
0.0000
 20
0.0000
 30
0.0000
 40
0.5000
 41
0.5000
 70
0
  0
VERTEX
  8
0
 10
0.0000
 20
-0.2500
 30
0.0000
 42
1.0000
  0
VERTEX
  8
0
 10
0.0000
 20
0.2500
 30
0.0000
 42
1.0000
  0
VERTEX
  8
0
 10
0.0000
 20
-0.2500
 30
0.0000
  0
SEQEND
  8
0
  0
ENDBLK
  8
0
  0
BLOCK
  8
0
  2
ANNULUSV
 70
64
 10
0.0000
 20
0.0000
 30
0.0000
  3
ANNULUSV
  0
POLYLINE
  8
0
 66
1
 10
0.0000
 20
0.0000
 30
0.0000
 40
0.5000
 41
0.5000
 70
0
  0
VERTEX
  8
0
 10
0.0000
 20
-0.2500
 30
0.0000
 42
1.0000
  0
VERTEX
  8
0
 10
0.0000
 20
0.2500
 30
0.0000
 42
1.0000
  0
VERTEX
  8
0
 10
0.0000
 20
-0.2500
 30
0.0000
  0
SEQEND
  8
0
  0
ENDBLK
  8
0
  0
BLOCK
  8
0
  2
THERMALV
 70
64
 10
0.0000
 20
0.0000
 30
0.0000
  3
THERMALV
  0
POLYLINE
  8
0
 66
1
 10
0.0000
 20
0.0000
 30
0.0000
 40
0.1000
 41
0.1000
 70
0
  0
VERTEX
  8
0
 10
-0.2379
 20
0.4500
 30
0.0000
  0
VERTEX
  8
0
 10
0.2379
 20
0.4500
 30
0.0000
  0
SEQEND
  8
0
  0
POLYLINE
  8
0
 66
1
 10
0.0000
 20
0.0000
 30
0.0000
 40
0.0500
 41
0.0500
 70
0
  0
VERTEX
  8
0
 10
0.2379
 20
0.4250
 30
0.0000
 42
1.0000
  0
VERTEX
  8
0
 10
0.2379
 20
0.4750
 30
0.0000
  0
SEQEND
  8
0
  0
POLYLINE
  8
0
 66
1
 10
0.0000
 20
0.0000
 30
0.0000
 40
0.0500
 41
0.0500
 70
0
  0
VERTEX
  8
0
 10
-0.2379
 20
0.4750
 30
0.0000
 42
1.0000
  0
VERTEX
  8
0
 10
-0.2379
 20
0.4250
 30
0.0000
  0
SEQEND
  8
0
  0
POLYLINE
  8
0
 66
1
 10
0.0000
 20
0.0000
 30
0.0000
 40
0.1000
 41
0.1000
 70
0
  0
VERTEX
  8
0
 10
0.4500
 20
0.2379
 30
0.0000
  0
VERTEX
  8
0
 10
0.4500
 20
-0.2379
 30
0.0000
  0
SEQEND
  8
0
  0
POLYLINE
  8
0
 66
1
 10
0.0000
 20
0.0000
 30
0.0000
 40
0.0500
 41
0.0500
 70
0
  0
VERTEX
  8
0
 10
0.4250
 20
-0.2379
 30
0.0000
 42
1.0000
  0
VERTEX
  8
0
 10
0.4750
 20
-0.2379
 30
0.0000
  0
SEQEND
  8
0
  0
POLYLINE
  8
0
 66
1
 10
0.0000
 20
0.0000
 30
0.0000
 40
0.0500
 41
0.0500
 70
0
  0
VERTEX
  8
0
 10
0.4750
 20
0.2379
 30
0.0000
 42
1.0000
  0
VERTEX
  8
0
 10
0.4250
 20
0.2379
 30
0.0000
  0
SEQEND
  8
0
  0
POLYLINE
  8
0
 66
1
 10
0.0000
 20
0.0000
 30
0.0000
 40
0.1000
 41
0.1000
 70
0
  0
VERTEX
  8
0
 10
0.2379
 20
-0.4500
 30
0.0000
  0
VERTEX
  8
0
 10
-0.2379
 20
-0.4500
 30
0.0000
  0
SEQEND
  8
0
  0
POLYLINE
  8
0
 66
1
 10
0.0000
 20
0.0000
 30
0.0000
 40
0.0500
 41
0.0500
 70
0
  0
VERTEX
  8
0
 10
-0.2379
 20
-0.4250
 30
0.0000
 42
1.0000
  0
VERTEX
  8
0
 10
-0.2379
 20
-0.4750
 30
0.0000
  0
SEQEND
  8
0
  0
POLYLINE
  8
0
 66
1
 10
0.0000
 20
0.0000
 30
0.0000
 40
0.0500
 41
0.0500
 70
0
  0
VERTEX
  8
0
 10
0.2379
 20
-0.4750
 30
0.0000
 42
1.0000
  0
VERTEX
  8
0
 10
0.2379
 20
-0.4250
 30
0.0000
  0
SEQEND
  8
0
  0
POLYLINE
  8
0
 66
1
 10
0.0000
 20
0.0000
 30
0.0000
 40
0.1000
 41
0.1000
 70
0
  0
VERTEX
  8
0
 10
-0.4500
 20
-0.2379
 30
0.0000
  0
VERTEX
  8
0
 10
-0.4500
 20
0.2379
 30
0.0000
  0
SEQEND
  8
0
  0
POLYLINE
  8
0
 66
1
 10
0.0000
 20
0.0000
 30
0.0000
 40
0.0500
 41
0.0500
 70
0
  0
VERTEX
  8
0
 10
-0.4250
 20
0.2379
 30
0.0000
 42
1.0000
  0
VERTEX
  8
0
 10
-0.4750
 20
0.2379
 30
0.0000
  0
SEQEND
  8
0
  0
POLYLINE
  8
0
 66
1
 10
0.0000
 20
0.0000
 30
0.0000
 40
0.0500
 41
0.0500
 70
0
  0
VERTEX
  8
0
 10
-0.4750
 20
-0.2379
 30
0.0000
 42
1.0000
  0
VERTEX
  8
0
 10
-0.4250
 20
-0.2379
 30
0.0000
  0
SEQEND
  8
0
  0
ENDBLK
  8
0
  0
ENDSEC
  0
SECTION
  2
ENTITIES
  0
LINE
  8
20
 10
100.0000
 20
85.0000
 30
0.0000
 11
100.0000
 21
50.8100
 31
0.0000
  0
LINE
  8
20
 10
100.0000
 20
50.8100
 30
0.0000
 11
99.0600
 21
48.2700
 31
0.0000
  0
LINE
  8
20
 10
99.0600
 20
48.2700
 30
0.0000
 11
99.0600
 21
1.0000
 31
0.0000
  0
ARC
  8
20
 10
98.0600
 20
1.0000
 30
0.0000
 40
1.0000
 50
270.0000
 51
0.0000
  0
LINE
  8
20
 10
98.0600
 20
0.0000
 30
0.0000
 11
32.0000
 21
0.0000
 31
0.0000
  0
ARC
  8
20
 10
1.0000
 20
1.0000
 30
0.0000
 40
1.0000
 50
180.0000
 51
270.0000
  0
LINE
  8
20
 10
0.0000
 20
1.0000
 30
0.0000
 11
0.0000
 21
99.0000
 31
0.0000
  0
LINE
  8
20
 10
99.0000
 20
98.0000
 30
0.0000
 11
99.0000
 21
87.5000
 31
0.0000
  0
LINE
  8
20
 10
99.0000
 20
87.5000
 30
0.0000
 11
100.0000
 21
85.0000
 31
0.0000
  0
LINE
  8
20
 10
99.0600
 20
48.2600
 30
0.0000
 11
99.0600
 21
47.9900
 31
0.0000
  0
LINE
  8
20
 10
97.0000
 20
100.0000
 30
0.0000
 11
99.0000
 21
98.0000
 31
0.0000
  0
ARC
  8
20
 10
1.0000
 20
99.0000
 30
0.0000
 40
1.0000
 50
90.0000
 51
180.0000
  0
LINE
  8
20
 10
32.0000
 20
0.0000
 30
0.0000
 11
31.0000
 21
0.0000
 31
0.0000
  0
LINE
  8
20
 10
37.7500
 20
79.0000
 30
0.0000
 11
61.0000
 21
79.0000
 31
0.0000
  0
LINE
  8
20
 10
61.0000
 20
79.0000
 30
0.0000
 11
61.0000
 21
66.0000
 31
0.0000
  0
LINE
  8
20
 10
61.0000
 20
66.0000
 30
0.0000
 11
37.7500
 21
66.0000
 31
0.0000
  0
LINE
  8
20
 10
37.7500
 20
66.0000
 30
0.0000
 11
37.7500
 21
79.0000
 31
0.0000
  0
LINE
  8
20
 10
1.0000
 20
0.0000
 30
0.0000
 11
12.0000
 21
0.0000
 31
0.0000
  0
LINE
  8
20
 10
8.2500
 20
89.0000
 30
0.0000
 11
31.2500
 21
89.0000
 31
0.0000
  0
ARC
  8
20
 10
4.5000
 20
73.5000
 30
0.0000
 40
10.2134
 50
291.5410
 51
68.4590
  0
LINE
  8
20
 10
31.2500
 20
58.0000
 30
0.0000
 11
31.2500
 21
71.0000
 31
0.0000
  0
LINE
  8
20
 10
31.2500
 20
76.0000
 30
0.0000
 11
31.2500
 21
89.0000
 31
0.0000
  0
LINE
  8
20
 10
21.2500
 20
73.5000
 30
0.0000
 11
21.2500
 21
76.0000
 31
0.0000
  0
LINE
  8
20
 10
21.2500
 20
73.5000
 30
0.0000
 11
21.2500
 21
71.0000
 31
0.0000
  0
LINE
  8
20
 10
21.2500
 20
71.0000
 30
0.0000
 11
31.2500
 21
71.0000
 31
0.0000
  0
LINE
  8
20
 10
21.2500
 20
76.0000
 30
0.0000
 11
31.2500
 21
76.0000
 31
0.0000
  0
LINE
  8
20
 10
8.2500
 20
83.0000
 30
0.0000
 11
8.2500
 21
89.0000
 31
0.0000
  0
LINE
  8
20
 10
8.2500
 20
64.0000
 30
0.0000
 11
8.2500
 21
58.0000
 31
0.0000
  0
LINE
  8
20
 10
90.7500
 20
58.0000
 30
0.0000
 11
67.7500
 21
58.0000
 31
0.0000
  0
LINE
  8
20
 10
67.7500
 20
89.0000
 30
0.0000
 11
90.7500
 21
89.0000
 31
0.0000
  0
ARC
  8
20
 10
94.5000
 20
73.5000
 30
0.0000
 40
10.2134
 50
111.5410
 51
248.4590
  0
LINE
  8
20
 10
67.7500
 20
89.0000
 30
0.0000
 11
67.7500
 21
76.0000
 31
0.0000
  0
LINE
  8
20
 10
67.7500
 20
71.0000
 30
0.0000
 11
67.7500
 21
58.0000
 31
0.0000
  0
LINE
  8
20
 10
77.7500
 20
73.5000
 30
0.0000
 11
77.7500
 21
71.0000
 31
0.0000
  0
LINE
  8
20
 10
77.7500
 20
73.5000
 30
0.0000
 11
77.7500
 21
76.0000
 31
0.0000
  0
LINE
  8
20
 10
77.7500
 20
76.0000
 30
0.0000
 11
67.7500
 21
76.0000
 31
0.0000
  0
LINE
  8
20
 10
77.7500
 20
71.0000
 30
0.0000
 11
67.7500
 21
71.0000
 31
0.0000
  0
LINE
  8
20
 10
90.7500
 20
64.0000
 30
0.0000
 11
90.7500
 21
58.0000
 31
0.0000
  0
LINE
  8
20
 10
90.7500
 20
83.0000
 30
0.0000
 11
90.7500
 21
89.0000
 31
0.0000
  0
LINE
  8
20
 10
1.0000
 20
100.0000
 30
0.0000
 11
97.0000
 21
100.0000
 31
0.0000
  0
LINE
  8
20
 10
80.2500
 20
40.5000
 30
0.0000
 11
80.2500
 21
38.0000
 31
0.0000
  0
LINE
  8
20
 10
80.2500
 20
38.0000
 30
0.0000
 11
87.7500
 21
38.0000
 31
0.0000
  0
LINE
  8
20
 10
87.7500
 20
38.0000
 30
0.0000
 11
87.7500
 21
35.5000
 31
0.0000
  0
LINE
  8
20
 10
87.7500
 20
35.5000
 30
0.0000
 11
90.2500
 21
35.5000
 31
0.0000
  0
LINE
  8
20
 10
90.2500
 20
35.5000
 30
0.0000
 11
90.2500
 21
33.0000
 31
0.0000
  0
LINE
  8
20
 10
90.2500
 20
30.5000
 30
0.0000
 11
92.7500
 21
30.5000
 31
0.0000
  0
LINE
  8
20
 10
92.7500
 20
30.5000
 30
0.0000
 11
92.7500
 21
25.5000
 31
0.0000
  0
LINE
  8
20
 10
92.7500
 20
25.5000
 30
0.0000
 11
95.2500
 21
25.5000
 31
0.0000
  0
LINE
  8
20
 10
95.2500
 20
25.5000
 30
0.0000
 11
95.2500
 21
18.0000
 31
0.0000
  0
LINE
  8
20
 10
95.2500
 20
18.0000
 30
0.0000
 11
92.7500
 21
18.0000
 31
0.0000
  0
LINE
  8
20
 10
92.7500
 20
18.0000
 30
0.0000
 11
92.7500
 21
15.5000
 31
0.0000
  0
LINE
  8
20
 10
92.7500
 20
15.5000
 30
0.0000
 11
90.2500
 21
15.5000
 31
0.0000
  0
LINE
  8
20
 10
90.2500
 20
11.7500
 30
0.0000
 11
90.2500
 21
5.5000
 31
0.0000
  0
LINE
  8
20
 10
90.2500
 20
5.5000
 30
0.0000
 11
76.5000
 21
5.5000
 31
0.0000
  0
LINE
  8
20
 10
76.5000
 20
5.5000
 30
0.0000
 11
74.0000
 21
5.5000
 31
0.0000
  0
LINE
  8
20
 10
74.0000
 20
5.5000
 30
0.0000
 11
60.2500
 21
5.5000
 31
0.0000
  0
LINE
  8
20
 10
60.2500
 20
5.5000
 30
0.0000
 11
60.2500
 21
11.7500
 31
0.0000
  0
LINE
  8
20
 10
60.2500
 20
15.5000
 30
0.0000
 11
57.7500
 21
15.5000
 31
0.0000
  0
LINE
  8
20
 10
57.7500
 20
15.5000
 30
0.0000
 11
57.7500
 21
18.0000
 31
0.0000
  0
LINE
  8
20
 10
57.7500
 20
18.0000
 30
0.0000
 11
55.2500
 21
18.0000
 31
0.0000
  0
LINE
  8
20
 10
55.2500
 20
18.0000
 30
0.0000
 11
55.2500
 21
30.5000
 31
0.0000
  0
LINE
  8
20
 10
55.2500
 20
30.5000
 30
0.0000
 11
57.7500
 21
30.5000
 31
0.0000
  0
LINE
  8
20
 10
57.7500
 20
33.0000
 30
0.0000
 11
57.7500
 21
35.5000
 31
0.0000
  0
LINE
  8
20
 10
57.7500
 20
35.5000
 30
0.0000
 11
62.7500
 21
35.5000
 31
0.0000
  0
LINE
  8
20
 10
62.7500
 20
35.5000
 30
0.0000
 11
62.7500
 21
38.0000
 31
0.0000
  0
LINE
  8
20
 10
62.7500
 20
38.0000
 30
0.0000
 11
67.7500
 21
38.0000
 31
0.0000
  0
LINE
  8
20
 10
67.7500
 20
38.0000
 30
0.0000
 11
67.7500
 21
40.5000
 31
0.0000
  0
LINE
  8
20
 10
67.7500
 20
40.5000
 30
0.0000
 11
74.0000
 21
40.5000
 31
0.0000
  0
LINE
  8
20
 10
76.5000
 20
40.5000
 30
0.0000
 11
80.2500
 21
40.5000
 31
0.0000
  0
LINE
  8
20
 10
70.2500
 20
38.0000
 30
0.0000
 11
70.2500
 21
35.5000
 31
0.0000
  0
LINE
  8
20
 10
70.2500
 20
35.5000
 30
0.0000
 11
65.2500
 21
35.5000
 31
0.0000
  0
LINE
  8
20
 10
65.2500
 20
35.5000
 30
0.0000
 11
65.2500
 21
33.0000
 31
0.0000
  0
LINE
  8
20
 10
65.2500
 20
33.0000
 30
0.0000
 11
60.2500
 21
33.0000
 31
0.0000
  0
LINE
  8
20
 10
60.2500
 20
30.5000
 30
0.0000
 11
60.2500
 21
28.0000
 31
0.0000
  0
LINE
  8
20
 10
60.2500
 20
28.0000
 30
0.0000
 11
65.2500
 21
28.0000
 31
0.0000
  0
LINE
  8
20
 10
65.2500
 20
28.0000
 30
0.0000
 11
65.2500
 21
20.5000
 31
0.0000
  0
LINE
  8
20
 10
65.2500
 20
20.5000
 30
0.0000
 11
60.2500
 21
20.5000
 31
0.0000
  0
LINE
  8
20
 10
60.2500
 20
20.5000
 30
0.0000
 11
60.2500
 21
18.0000
 31
0.0000
  0
LINE
  8
20
 10
62.7500
 20
18.0000
 30
0.0000
 11
74.0000
 21
18.0000
 31
0.0000
  0
LINE
  8
20
 10
74.0000
 20
18.0000
 30
0.0000
 11
76.5000
 21
18.0000
 31
0.0000
  0
LINE
  8
20
 10
76.5000
 20
18.0000
 30
0.0000
 11
86.5000
 21
18.0000
 31
0.0000
  0
LINE
  8
20
 10
90.2500
 20
18.0000
 30
0.0000
 11
90.2500
 21
20.5000
 31
0.0000
  0
LINE
  8
20
 10
90.2500
 20
20.5000
 30
0.0000
 11
85.2500
 21
20.5000
 31
0.0000
  0
LINE
  8
20
 10
85.2500
 20
20.5000
 30
0.0000
 11
85.2500
 21
28.0000
 31
0.0000
  0
LINE
  8
20
 10
85.2500
 20
28.0000
 30
0.0000
 11
87.7500
 21
28.0000
 31
0.0000
  0
LINE
  8
20
 10
87.7500
 20
28.0000
 30
0.0000
 11
87.7500
 21
30.5000
 31
0.0000
  0
LINE
  8
20
 10
87.7500
 20
33.0000
 30
0.0000
 11
85.2500
 21
33.0000
 31
0.0000
  0
LINE
  8
20
 10
85.2500
 20
33.0000
 30
0.0000
 11
85.2500
 21
35.5000
 31
0.0000
  0
LINE
  8
20
 10
85.2500
 20
35.5000
 30
0.0000
 11
77.7500
 21
35.5000
 31
0.0000
  0
LINE
  8
20
 10
77.7500
 20
35.5000
 30
0.0000
 11
77.7500
 21
38.0000
 31
0.0000
  0
LINE
  8
20
 10
77.7500
 20
38.0000
 30
0.0000
 11
76.5000
 21
38.0000
 31
0.0000
  0
LINE
  8
20
 10
74.0000
 20
38.0000
 30
0.0000
 11
70.2500
 21
38.0000
 31
0.0000
  0
LINE
  8
20
 10
70.2500
 20
30.5000
 30
0.0000
 11
70.2500
 21
20.5000
 31
0.0000
  0
LINE
  8
20
 10
70.2500
 20
20.5000
 30
0.0000
 11
77.7500
 21
20.5000
 31
0.0000
  0
LINE
  8
20
 10
77.7500
 20
20.5000
 30
0.0000
 11
77.7500
 21
30.5000
 31
0.0000
  0
LINE
  8
20
 10
77.7500
 20
30.5000
 30
0.0000
 11
70.2500
 21
30.5000
 31
0.0000
  0
LINE
  8
20
 10
62.7500
 20
11.7500
 30
0.0000
 11
62.7500
 21
8.0000
 31
0.0000
  0
LINE
  8
20
 10
62.7500
 20
8.0000
 30
0.0000
 11
74.0000
 21
8.0000
 31
0.0000
  0
LINE
  8
20
 10
74.0000
 20
8.0000
 30
0.0000
 11
76.5000
 21
8.0000
 31
0.0000
  0
LINE
  8
20
 10
76.5000
 20
8.0000
 30
0.0000
 11
87.7500
 21
8.0000
 31
0.0000
  0
LINE
  8
20
 10
87.7500
 20
8.0000
 30
0.0000
 11
87.7500
 21
11.7500
 31
0.0000
  0
LINE
  8
20
 10
86.5000
 20
15.5000
 30
0.0000
 11
80.2500
 21
15.5000
 31
0.0000
  0
LINE
  8
20
 10
80.2500
 20
15.5000
 30
0.0000
 11
80.2500
 21
10.5000
 31
0.0000
  0
LINE
  8
20
 10
80.2500
 20
10.5000
 30
0.0000
 11
77.7500
 21
10.5000
 31
0.0000
  0
LINE
  8
20
 10
77.7500
 20
10.5000
 30
0.0000
 11
77.7500
 21
15.5000
 31
0.0000
  0
LINE
  8
20
 10
77.7500
 20
15.5000
 30
0.0000
 11
76.5000
 21
15.5000
 31
0.0000
  0
LINE
  8
20
 10
76.5000
 20
15.5000
 30
0.0000
 11
74.0000
 21
15.5000
 31
0.0000
  0
LINE
  8
20
 10
74.0000
 20
15.5000
 30
0.0000
 11
72.7500
 21
15.5000
 31
0.0000
  0
LINE
  8
20
 10
72.7500
 20
15.5000
 30
0.0000
 11
72.7500
 21
10.5000
 31
0.0000
  0
LINE
  8
20
 10
72.7500
 20
10.5000
 30
0.0000
 11
70.2500
 21
10.5000
 31
0.0000
  0
LINE
  8
20
 10
70.2500
 20
10.5000
 30
0.0000
 11
70.2500
 21
15.5000
 31
0.0000
  0
LINE
  8
20
 10
70.2500
 20
15.5000
 30
0.0000
 11
62.7500
 21
15.5000
 31
0.0000
  0
LINE
  8
20
 10
57.7500
 20
30.5000
 30
0.0000
 11
60.2500
 21
30.5000
 31
0.0000
  0
LINE
  8
20
 10
60.2500
 20
33.0000
 30
0.0000
 11
57.7500
 21
33.0000
 31
0.0000
  0
LINE
  8
20
 10
87.7500
 20
33.0000
 30
0.0000
 11
90.2500
 21
33.0000
 31
0.0000
  0
LINE
  8
20
 10
90.2500
 20
30.5000
 30
0.0000
 11
87.7500
 21
30.5000
 31
0.0000
  0
LINE
  8
20
 10
74.0000
 20
38.0000
 30
0.0000
 11
76.5000
 21
38.0000
 31
0.0000
  0
LINE
  8
20
 10
74.0000
 20
40.5000
 30
0.0000
 11
76.5000
 21
40.5000
 31
0.0000
  0
LINE
  8
20
 10
87.7500
 20
11.7500
 30
0.0000
 11
87.7500
 21
13.0000
 31
0.0000
  0
LINE
  8
20
 10
87.7500
 20
13.0000
 30
0.0000
 11
89.0000
 21
13.0000
 31
0.0000
  0
LINE
  8
20
 10
89.0000
 20
13.0000
 30
0.0000
 11
90.2500
 21
13.0000
 31
0.0000
  0
LINE
  8
20
 10
90.2500
 20
13.0000
 30
0.0000
 11
90.2500
 21
11.7500
 31
0.0000
  0
LINE
  8
20
 10
60.2500
 20
11.7500
 30
0.0000
 11
60.2500
 21
13.0000
 31
0.0000
  0
LINE
  8
20
 10
60.2500
 20
13.0000
 30
0.0000
 11
61.5000
 21
13.0000
 31
0.0000
  0
LINE
  8
20
 10
61.5000
 20
13.0000
 30
0.0000
 11
62.7500
 21
13.0000
 31
0.0000
  0
LINE
  8
20
 10
62.7500
 20
13.0000
 30
0.0000
 11
62.7500
 21
11.7500
 31
0.0000
  0
LINE
  8
20
 10
60.2500
 20
18.0000
 30
0.0000
 11
60.2500
 21
15.5000
 31
0.0000
  0
LINE
  8
20
 10
62.7500
 20
15.5000
 30
0.0000
 11
62.7500
 21
18.0000
 31
0.0000
  0
LINE
  8
20
 10
90.2500
 20
18.0000
 30
0.0000
 11
90.2500
 21
15.5000
 31
0.0000
  0
LINE
  8
20
 10
86.5000
 20
18.0000
 30
0.0000
 11
87.7500
 21
18.0000
 31
0.0000
  0
LINE
  8
20
 10
87.7500
 20
18.0000
 30
0.0000
 11
87.7500
 21
16.7500
 31
0.0000
  0
LINE
  8
20
 10
87.7500
 20
16.7500
 30
0.0000
 11
87.7500
 21
15.5000
 31
0.0000
  0
LINE
  8
20
 10
87.7500
 20
15.5000
 30
0.0000
 11
86.5000
 21
15.5000
 31
0.0000
  0
LINE
  8
20
 10
12.0000
 20
0.0000
 30
0.0000
 11
31.0000
 21
0.0000
 31
0.0000
  0
LINE
  8
20
 10
8.2500
 20
58.0000
 30
0.0000
 11
31.2500
 21
58.0000
 31
0.0000
  0
POLYLINE
  8
20
 66
1
 10
0.0000
 20
0.0000
 30
0.0000
 40
1.1000
 41
1.1000
 70
0
  0
VERTEX
  8
20
 10
90.1700
 20
97.2500
 30
0.0000
 42
1.0000
  0
VERTEX
  8
20
 10
90.1700
 20
98.3500
 30
0.0000
 42
1.0000
  0
VERTEX
  8
20
 10
90.1700
 20
97.2500
 30
0.0000
  0
SEQEND
  8
0
  0
POLYLINE
  8
20
 66
1
 10
0.0000
 20
0.0000
 30
0.0000
 40
1.1000
 41
1.1000
 70
0
  0
VERTEX
  8
20
 10
15.2400
 20
97.2500
 30
0.0000
 42
1.0000
  0
VERTEX
  8
20
 10
15.2400
 20
98.3500
 30
0.0000
 42
1.0000
  0
VERTEX
  8
20
 10
15.2400
 20
97.2500
 30
0.0000
  0
SEQEND
  8
0
  0
POLYLINE
  8
20
 66
1
 10
0.0000
 20
0.0000
 30
0.0000
 40
1.1000
 41
1.1000
 70
0
  0
VERTEX
  8
20
 10
96.5200
 20
48.9800
 30
0.0000
 42
1.0000
  0
VERTEX
  8
20
 10
96.5200
 20
50.0800
 30
0.0000
 42
1.0000
  0
VERTEX
  8
20
 10
96.5200
 20
48.9800
 30
0.0000
  0
SEQEND
  8
0
  0
POLYLINE
  8
20
 66
1
 10
0.0000
 20
0.0000
 30
0.0000
 40
1.1000
 41
1.1000
 70
0
  0
VERTEX
  8
20
 10
13.9700
 20
48.9800
 30
0.0000
 42
1.0000
  0
VERTEX
  8
20
 10
13.9700
 20
50.0800
 30
0.0000
 42
1.0000
  0
VERTEX
  8
20
 10
13.9700
 20
48.9800
 30
0.0000
  0
SEQEND
  8
0
  0
POLYLINE
  8
20
 66
1
 10
0.0000
 20
0.0000
 30
0.0000
 40
1.6000
 41
1.6000
 70
0
  0
VERTEX
  8
20
 10
3.0400
 20
42.3800
 30
0.0000
 42
1.0000
  0
VERTEX
  8
20
 10
3.0400
 20
43.9800
 30
0.0000
 42
1.0000
  0
VERTEX
  8
20
 10
3.0400
 20
42.3800
 30
0.0000
  0
SEQEND
  8
0
  0
POLYLINE
  8
20
 66
1
 10
0.0000
 20
0.0000
 30
0.0000
 40
1.6000
 41
1.6000
 70
0
  0
VERTEX
  8
20
 10
50.1650
 20
19.0200
 30
0.0000
 42
1.0000
  0
VERTEX
  8
20
 10
50.1650
 20
20.6200
 30
0.0000
 42
1.0000
  0
VERTEX
  8
20
 10
50.1650
 20
19.0200
 30
0.0000
  0
SEQEND
  8
0
  0
POLYLINE
  8
20
 66
1
 10
0.0000
 20
0.0000
 30
0.0000
 40
1.6000
 41
1.6000
 70
0
  0
VERTEX
  8
20
 10
3.0400
 20
2.2400
 30
0.0000
 42
1.0000
  0
VERTEX
  8
20
 10
3.0400
 20
3.8400
 30
0.0000
 42
1.0000
  0
VERTEX
  8
20
 10
3.0400
 20
2.2400
 30
0.0000
  0
SEQEND
  8
0
  0
POLYLINE
  8
20
 66
1
 10
0.0000
 20
0.0000
 30
0.0000
 40
1.6000
 41
1.6000
 70
0
  0
VERTEX
  8
20
 10
96.0200
 20
2.2400
 30
0.0000
 42
1.0000
  0
VERTEX
  8
20
 10
96.0200
 20
3.8400
 30
0.0000
 42
1.0000
  0
VERTEX
  8
20
 10
96.0200
 20
2.2400
 30
0.0000
  0
SEQEND
  8
0
  0
ENDSEC
  0
EOF
