ISO-10303-21;
HEADER;
/* Generated by software containing ST-Developer
 * from STEP Tools, Inc. (www.steptools.com) 
 */

FILE_DESCRIPTION(
/* description */ (''),
/* implementation_level */ '2;1');

FILE_NAME(
/* name */ 'sc64_shell_button v3.step',
/* time_stamp */ '2024-01-03T20:51:50-06:00',
/* author */ (''),
/* organization */ (''),
/* preprocessor_version */ 'ST-DEVELOPER v20',
/* originating_system */ 'Autodesk Translation Framework v12.14.0.127',

/* authorisation */ '');

FILE_SCHEMA (('AUTOMOTIVE_DESIGN { 1 0 10303 214 3 1 1 }'));
ENDSEC;

DATA;
#10=MECHANICAL_DESIGN_GEOMETRIC_PRESENTATION_REPRESENTATION('',(#13),#504);
#11=SHAPE_REPRESENTATION_RELATIONSHIP('SRR','None',#510,#12);
#12=ADVANCED_BREP_SHAPE_REPRESENTATION('',(#14),#503);
#13=STYLED_ITEM('',(#522),#14);
#14=MANIFOLD_SOLID_BREP('ButtonCap',#299);
#15=CYLINDRICAL_SURFACE('',#320,3.);
#16=TOROIDAL_SURFACE('',#316,2.8,0.2);
#17=ELLIPSE('',#309,57.3219678278922,3.);
#18=ELLIPSE('',#311,57.3219678278922,3.);
#19=ELLIPSE('',#315,57.3219678278922,3.);
#20=ELLIPSE('',#322,57.3219678278922,3.);
#21=CIRCLE('',#307,3.);
#22=CIRCLE('',#313,3.);
#23=CIRCLE('',#317,2.8);
#24=CIRCLE('',#318,0.2);
#25=CIRCLE('',#319,3.);
#26=CIRCLE('',#321,3.);
#27=CIRCLE('',#323,3.);
#28=CIRCLE('',#324,3.);
#29=FACE_OUTER_BOUND('',#45,.T.);
#30=FACE_OUTER_BOUND('',#46,.T.);
#31=FACE_OUTER_BOUND('',#47,.T.);
#32=FACE_OUTER_BOUND('',#48,.T.);
#33=FACE_OUTER_BOUND('',#49,.T.);
#34=FACE_OUTER_BOUND('',#50,.T.);
#35=FACE_OUTER_BOUND('',#51,.T.);
#36=FACE_OUTER_BOUND('',#52,.T.);
#37=FACE_OUTER_BOUND('',#53,.T.);
#38=FACE_OUTER_BOUND('',#54,.T.);
#39=FACE_OUTER_BOUND('',#55,.T.);
#40=FACE_OUTER_BOUND('',#56,.T.);
#41=FACE_OUTER_BOUND('',#57,.T.);
#42=FACE_OUTER_BOUND('',#58,.T.);
#43=FACE_OUTER_BOUND('',#59,.T.);
#44=FACE_OUTER_BOUND('',#60,.T.);
#45=EDGE_LOOP('',(#187,#188,#189,#190));
#46=EDGE_LOOP('',(#191,#192,#193,#194,#195,#196,#197,#198));
#47=EDGE_LOOP('',(#199,#200,#201,#202));
#48=EDGE_LOOP('',(#203,#204,#205,#206,#207,#208,#209,#210));
#49=EDGE_LOOP('',(#211,#212,#213,#214));
#50=EDGE_LOOP('',(#215,#216,#217,#218,#219,#220));
#51=EDGE_LOOP('',(#221,#222,#223,#224));
#52=EDGE_LOOP('',(#225,#226,#227,#228));
#53=EDGE_LOOP('',(#229,#230,#231,#232));
#54=EDGE_LOOP('',(#233,#234,#235,#236));
#55=EDGE_LOOP('',(#237,#238,#239,#240));
#56=EDGE_LOOP('',(#241,#242,#243,#244,#245,#246,#247,#248,#249,#250,#251,
#252));
#57=EDGE_LOOP('',(#253));
#58=EDGE_LOOP('',(#254,#255,#256,#257));
#59=EDGE_LOOP('',(#258,#259,#260,#261));
#60=EDGE_LOOP('',(#262,#263,#264,#265,#266,#267,#268));
#61=LINE('',#420,#90);
#62=LINE('',#422,#91);
#63=LINE('',#424,#92);
#64=LINE('',#425,#93);
#65=LINE('',#429,#94);
#66=LINE('',#431,#95);
#67=LINE('',#432,#96);
#68=LINE('',#434,#97);
#69=LINE('',#436,#98);
#70=LINE('',#438,#99);
#71=LINE('',#439,#100);
#72=LINE('',#442,#101);
#73=LINE('',#443,#102);
#74=LINE('',#447,#103);
#75=LINE('',#449,#104);
#76=LINE('',#451,#105);
#77=LINE('',#453,#106);
#78=LINE('',#454,#107);
#79=LINE('',#455,#108);
#80=LINE('',#457,#109);
#81=LINE('',#460,#110);
#82=LINE('',#463,#111);
#83=LINE('',#466,#112);
#84=LINE('',#471,#113);
#85=LINE('',#474,#114);
#86=LINE('',#478,#115);
#87=LINE('',#488,#116);
#88=LINE('',#497,#117);
#89=LINE('',#498,#118);
#90=VECTOR('',#333,10.);
#91=VECTOR('',#334,10.);
#92=VECTOR('',#335,10.);
#93=VECTOR('',#336,10.);
#94=VECTOR('',#339,10.);
#95=VECTOR('',#340,10.);
#96=VECTOR('',#341,10.);
#97=VECTOR('',#342,10.);
#98=VECTOR('',#343,10.);
#99=VECTOR('',#344,10.);
#100=VECTOR('',#345,10.);
#101=VECTOR('',#348,10.);
#102=VECTOR('',#349,10.);
#103=VECTOR('',#352,10.);
#104=VECTOR('',#353,10.);
#105=VECTOR('',#354,10.);
#106=VECTOR('',#355,10.);
#107=VECTOR('',#356,10.);
#108=VECTOR('',#357,10.);
#109=VECTOR('',#360,10.);
#110=VECTOR('',#363,10.);
#111=VECTOR('',#366,10.);
#112=VECTOR('',#369,10.);
#113=VECTOR('',#376,10.);
#114=VECTOR('',#379,10.);
#115=VECTOR('',#384,10.);
#116=VECTOR('',#397,3.);
#117=VECTOR('',#410,10.);
#118=VECTOR('',#411,10.);
#119=VERTEX_POINT('',#418);
#120=VERTEX_POINT('',#419);
#121=VERTEX_POINT('',#421);
#122=VERTEX_POINT('',#423);
#123=VERTEX_POINT('',#427);
#124=VERTEX_POINT('',#428);
#125=VERTEX_POINT('',#430);
#126=VERTEX_POINT('',#433);
#127=VERTEX_POINT('',#435);
#128=VERTEX_POINT('',#437);
#129=VERTEX_POINT('',#441);
#130=VERTEX_POINT('',#445);
#131=VERTEX_POINT('',#446);
#132=VERTEX_POINT('',#448);
#133=VERTEX_POINT('',#450);
#134=VERTEX_POINT('',#452);
#135=VERTEX_POINT('',#459);
#136=VERTEX_POINT('',#461);
#137=VERTEX_POINT('',#465);
#138=VERTEX_POINT('',#469);
#139=VERTEX_POINT('',#473);
#140=VERTEX_POINT('',#477);
#141=VERTEX_POINT('',#481);
#142=VERTEX_POINT('',#483);
#143=VERTEX_POINT('',#487);
#144=VERTEX_POINT('',#489);
#145=VERTEX_POINT('',#491);
#146=EDGE_CURVE('',#119,#120,#61,.T.);
#147=EDGE_CURVE('',#121,#119,#62,.T.);
#148=EDGE_CURVE('',#122,#121,#63,.T.);
#149=EDGE_CURVE('',#120,#122,#64,.T.);
#150=EDGE_CURVE('',#123,#124,#65,.T.);
#151=EDGE_CURVE('',#125,#123,#66,.T.);
#152=EDGE_CURVE('',#125,#119,#67,.T.);
#153=EDGE_CURVE('',#126,#120,#68,.T.);
#154=EDGE_CURVE('',#127,#126,#69,.T.);
#155=EDGE_CURVE('',#128,#127,#70,.T.);
#156=EDGE_CURVE('',#124,#128,#71,.T.);
#157=EDGE_CURVE('',#129,#125,#72,.T.);
#158=EDGE_CURVE('',#129,#121,#73,.T.);
#159=EDGE_CURVE('',#130,#131,#74,.T.);
#160=EDGE_CURVE('',#132,#130,#75,.T.);
#161=EDGE_CURVE('',#133,#132,#76,.T.);
#162=EDGE_CURVE('',#134,#133,#77,.T.);
#163=EDGE_CURVE('',#134,#122,#78,.T.);
#164=EDGE_CURVE('',#131,#129,#79,.T.);
#165=EDGE_CURVE('',#126,#134,#80,.T.);
#166=EDGE_CURVE('',#123,#135,#81,.F.);
#167=EDGE_CURVE('',#136,#135,#21,.T.);
#168=EDGE_CURVE('',#136,#131,#82,.F.);
#169=EDGE_CURVE('',#124,#137,#83,.F.);
#170=EDGE_CURVE('',#135,#137,#17,.T.);
#171=EDGE_CURVE('',#138,#136,#18,.T.);
#172=EDGE_CURVE('',#138,#130,#84,.F.);
#173=EDGE_CURVE('',#139,#128,#85,.F.);
#174=EDGE_CURVE('',#137,#139,#22,.T.);
#175=EDGE_CURVE('',#140,#127,#86,.F.);
#176=EDGE_CURVE('',#139,#140,#19,.T.);
#177=EDGE_CURVE('',#141,#141,#23,.T.);
#178=EDGE_CURVE('',#141,#142,#24,.T.);
#179=EDGE_CURVE('',#142,#142,#25,.T.);
#180=EDGE_CURVE('',#142,#143,#87,.T.);
#181=EDGE_CURVE('',#143,#144,#26,.T.);
#182=EDGE_CURVE('',#144,#145,#20,.T.);
#183=EDGE_CURVE('',#145,#138,#27,.T.);
#184=EDGE_CURVE('',#140,#143,#28,.T.);
#185=EDGE_CURVE('',#132,#145,#88,.F.);
#186=EDGE_CURVE('',#133,#144,#89,.F.);
#187=ORIENTED_EDGE('',*,*,#146,.F.);
#188=ORIENTED_EDGE('',*,*,#147,.F.);
#189=ORIENTED_EDGE('',*,*,#148,.F.);
#190=ORIENTED_EDGE('',*,*,#149,.F.);
#191=ORIENTED_EDGE('',*,*,#150,.F.);
#192=ORIENTED_EDGE('',*,*,#151,.F.);
#193=ORIENTED_EDGE('',*,*,#152,.T.);
#194=ORIENTED_EDGE('',*,*,#146,.T.);
#195=ORIENTED_EDGE('',*,*,#153,.F.);
#196=ORIENTED_EDGE('',*,*,#154,.F.);
#197=ORIENTED_EDGE('',*,*,#155,.F.);
#198=ORIENTED_EDGE('',*,*,#156,.F.);
#199=ORIENTED_EDGE('',*,*,#157,.F.);
#200=ORIENTED_EDGE('',*,*,#158,.T.);
#201=ORIENTED_EDGE('',*,*,#147,.T.);
#202=ORIENTED_EDGE('',*,*,#152,.F.);
#203=ORIENTED_EDGE('',*,*,#159,.F.);
#204=ORIENTED_EDGE('',*,*,#160,.F.);
#205=ORIENTED_EDGE('',*,*,#161,.F.);
#206=ORIENTED_EDGE('',*,*,#162,.F.);
#207=ORIENTED_EDGE('',*,*,#163,.T.);
#208=ORIENTED_EDGE('',*,*,#148,.T.);
#209=ORIENTED_EDGE('',*,*,#158,.F.);
#210=ORIENTED_EDGE('',*,*,#164,.F.);
#211=ORIENTED_EDGE('',*,*,#165,.F.);
#212=ORIENTED_EDGE('',*,*,#153,.T.);
#213=ORIENTED_EDGE('',*,*,#149,.T.);
#214=ORIENTED_EDGE('',*,*,#163,.F.);
#215=ORIENTED_EDGE('',*,*,#164,.T.);
#216=ORIENTED_EDGE('',*,*,#157,.T.);
#217=ORIENTED_EDGE('',*,*,#151,.T.);
#218=ORIENTED_EDGE('',*,*,#166,.T.);
#219=ORIENTED_EDGE('',*,*,#167,.F.);
#220=ORIENTED_EDGE('',*,*,#168,.T.);
#221=ORIENTED_EDGE('',*,*,#150,.T.);
#222=ORIENTED_EDGE('',*,*,#169,.T.);
#223=ORIENTED_EDGE('',*,*,#170,.F.);
#224=ORIENTED_EDGE('',*,*,#166,.F.);
#225=ORIENTED_EDGE('',*,*,#159,.T.);
#226=ORIENTED_EDGE('',*,*,#168,.F.);
#227=ORIENTED_EDGE('',*,*,#171,.F.);
#228=ORIENTED_EDGE('',*,*,#172,.T.);
#229=ORIENTED_EDGE('',*,*,#156,.T.);
#230=ORIENTED_EDGE('',*,*,#173,.F.);
#231=ORIENTED_EDGE('',*,*,#174,.F.);
#232=ORIENTED_EDGE('',*,*,#169,.F.);
#233=ORIENTED_EDGE('',*,*,#155,.T.);
#234=ORIENTED_EDGE('',*,*,#175,.F.);
#235=ORIENTED_EDGE('',*,*,#176,.F.);
#236=ORIENTED_EDGE('',*,*,#173,.T.);
#237=ORIENTED_EDGE('',*,*,#177,.T.);
#238=ORIENTED_EDGE('',*,*,#178,.T.);
#239=ORIENTED_EDGE('',*,*,#179,.T.);
#240=ORIENTED_EDGE('',*,*,#178,.F.);
#241=ORIENTED_EDGE('',*,*,#179,.F.);
#242=ORIENTED_EDGE('',*,*,#180,.T.);
#243=ORIENTED_EDGE('',*,*,#181,.T.);
#244=ORIENTED_EDGE('',*,*,#182,.T.);
#245=ORIENTED_EDGE('',*,*,#183,.T.);
#246=ORIENTED_EDGE('',*,*,#171,.T.);
#247=ORIENTED_EDGE('',*,*,#167,.T.);
#248=ORIENTED_EDGE('',*,*,#170,.T.);
#249=ORIENTED_EDGE('',*,*,#174,.T.);
#250=ORIENTED_EDGE('',*,*,#176,.T.);
#251=ORIENTED_EDGE('',*,*,#184,.T.);
#252=ORIENTED_EDGE('',*,*,#180,.F.);
#253=ORIENTED_EDGE('',*,*,#177,.F.);
#254=ORIENTED_EDGE('',*,*,#161,.T.);
#255=ORIENTED_EDGE('',*,*,#185,.T.);
#256=ORIENTED_EDGE('',*,*,#182,.F.);
#257=ORIENTED_EDGE('',*,*,#186,.F.);
#258=ORIENTED_EDGE('',*,*,#160,.T.);
#259=ORIENTED_EDGE('',*,*,#172,.F.);
#260=ORIENTED_EDGE('',*,*,#183,.F.);
#261=ORIENTED_EDGE('',*,*,#185,.F.);
#262=ORIENTED_EDGE('',*,*,#162,.T.);
#263=ORIENTED_EDGE('',*,*,#186,.T.);
#264=ORIENTED_EDGE('',*,*,#181,.F.);
#265=ORIENTED_EDGE('',*,*,#184,.F.);
#266=ORIENTED_EDGE('',*,*,#175,.T.);
#267=ORIENTED_EDGE('',*,*,#154,.T.);
#268=ORIENTED_EDGE('',*,*,#165,.T.);
#269=PLANE('',#301);
#270=PLANE('',#302);
#271=PLANE('',#303);
#272=PLANE('',#304);
#273=PLANE('',#305);
#274=PLANE('',#306);
#275=PLANE('',#308);
#276=PLANE('',#310);
#277=PLANE('',#312);
#278=PLANE('',#314);
#279=PLANE('',#325);
#280=PLANE('',#326);
#281=PLANE('',#327);
#282=PLANE('',#328);
#283=ADVANCED_FACE('',(#29),#269,.F.);
#284=ADVANCED_FACE('',(#30),#270,.F.);
#285=ADVANCED_FACE('',(#31),#271,.F.);
#286=ADVANCED_FACE('',(#32),#272,.F.);
#287=ADVANCED_FACE('',(#33),#273,.F.);
#288=ADVANCED_FACE('',(#34),#274,.F.);
#289=ADVANCED_FACE('',(#35),#275,.F.);
#290=ADVANCED_FACE('',(#36),#276,.F.);
#291=ADVANCED_FACE('',(#37),#277,.F.);
#292=ADVANCED_FACE('',(#38),#278,.F.);
#293=ADVANCED_FACE('',(#39),#16,.T.);
#294=ADVANCED_FACE('',(#40),#15,.T.);
#295=ADVANCED_FACE('',(#41),#279,.T.);
#296=ADVANCED_FACE('',(#42),#280,.F.);
#297=ADVANCED_FACE('',(#43),#281,.F.);
#298=ADVANCED_FACE('',(#44),#282,.F.);
#299=CLOSED_SHELL('',(#283,#284,#285,#286,#287,#288,#289,#290,#291,#292,
#293,#294,#295,#296,#297,#298));
#300=AXIS2_PLACEMENT_3D('',#416,#329,#330);
#301=AXIS2_PLACEMENT_3D('',#417,#331,#332);
#302=AXIS2_PLACEMENT_3D('',#426,#337,#338);
#303=AXIS2_PLACEMENT_3D('',#440,#346,#347);
#304=AXIS2_PLACEMENT_3D('',#444,#350,#351);
#305=AXIS2_PLACEMENT_3D('',#456,#358,#359);
#306=AXIS2_PLACEMENT_3D('',#458,#361,#362);
#307=AXIS2_PLACEMENT_3D('',#462,#364,#365);
#308=AXIS2_PLACEMENT_3D('',#464,#367,#368);
#309=AXIS2_PLACEMENT_3D('',#467,#370,#371);
#310=AXIS2_PLACEMENT_3D('',#468,#372,#373);
#311=AXIS2_PLACEMENT_3D('',#470,#374,#375);
#312=AXIS2_PLACEMENT_3D('',#472,#377,#378);
#313=AXIS2_PLACEMENT_3D('',#475,#380,#381);
#314=AXIS2_PLACEMENT_3D('',#476,#382,#383);
#315=AXIS2_PLACEMENT_3D('',#479,#385,#386);
#316=AXIS2_PLACEMENT_3D('',#480,#387,#388);
#317=AXIS2_PLACEMENT_3D('',#482,#389,#390);
#318=AXIS2_PLACEMENT_3D('',#484,#391,#392);
#319=AXIS2_PLACEMENT_3D('',#485,#393,#394);
#320=AXIS2_PLACEMENT_3D('',#486,#395,#396);
#321=AXIS2_PLACEMENT_3D('',#490,#398,#399);
#322=AXIS2_PLACEMENT_3D('',#492,#400,#401);
#323=AXIS2_PLACEMENT_3D('',#493,#402,#403);
#324=AXIS2_PLACEMENT_3D('',#494,#404,#405);
#325=AXIS2_PLACEMENT_3D('',#495,#406,#407);
#326=AXIS2_PLACEMENT_3D('',#496,#408,#409);
#327=AXIS2_PLACEMENT_3D('',#499,#412,#413);
#328=AXIS2_PLACEMENT_3D('',#500,#414,#415);
#329=DIRECTION('axis',(0.,0.,1.));
#330=DIRECTION('refdir',(1.,0.,0.));
#331=DIRECTION('center_axis',(0.,0.,1.));
#332=DIRECTION('ref_axis',(1.,0.,0.));
#333=DIRECTION('',(-1.,0.,0.));
#334=DIRECTION('',(0.,1.,0.));
#335=DIRECTION('',(1.,0.,0.));
#336=DIRECTION('',(0.,-1.,0.));
#337=DIRECTION('center_axis',(0.,1.,0.));
#338=DIRECTION('ref_axis',(-1.,0.,0.));
#339=DIRECTION('',(-0.0523359562429438,0.,0.998629534754574));
#340=DIRECTION('',(-1.,0.,0.));
#341=DIRECTION('',(0.,0.,1.));
#342=DIRECTION('',(0.,0.,1.));
#343=DIRECTION('',(-1.,0.,0.));
#344=DIRECTION('',(-0.0523359562429438,0.,-0.998629534754574));
#345=DIRECTION('',(-1.,0.,0.));
#346=DIRECTION('center_axis',(1.,0.,0.));
#347=DIRECTION('ref_axis',(0.,1.,0.));
#348=DIRECTION('',(0.,1.,0.));
#349=DIRECTION('',(0.,0.,1.));
#350=DIRECTION('center_axis',(0.,-1.,0.));
#351=DIRECTION('ref_axis',(1.,0.,0.));
#352=DIRECTION('',(0.0523359562429438,0.,-0.998629534754574));
#353=DIRECTION('',(1.,0.,0.));
#354=DIRECTION('',(0.0523359562429438,0.,0.998629534754574));
#355=DIRECTION('',(1.,0.,0.));
#356=DIRECTION('',(0.,0.,1.));
#357=DIRECTION('',(1.,0.,0.));
#358=DIRECTION('center_axis',(-1.,0.,0.));
#359=DIRECTION('ref_axis',(0.,-1.,0.));
#360=DIRECTION('',(0.,-1.,0.));
#361=DIRECTION('center_axis',(0.,0.,1.));
#362=DIRECTION('ref_axis',(1.,0.,0.));
#363=DIRECTION('',(0.,-1.,0.));
#364=DIRECTION('center_axis',(0.,0.,1.));
#365=DIRECTION('ref_axis',(1.,0.,0.));
#366=DIRECTION('',(0.,-1.,0.));
#367=DIRECTION('center_axis',(0.998629534754574,0.,0.0523359562429438));
#368=DIRECTION('ref_axis',(0.,1.,0.));
#369=DIRECTION('',(0.,-1.,0.));
#370=DIRECTION('center_axis',(0.998629534754574,0.,0.0523359562429438));
#371=DIRECTION('ref_axis',(0.0523359562429438,0.,-0.998629534754574));
#372=DIRECTION('center_axis',(0.998629534754574,0.,0.0523359562429438));
#373=DIRECTION('ref_axis',(0.,1.,0.));
#374=DIRECTION('center_axis',(0.998629534754574,0.,0.0523359562429438));
#375=DIRECTION('ref_axis',(0.0523359562429438,0.,-0.998629534754574));
#376=DIRECTION('',(0.,-1.,0.));
#377=DIRECTION('center_axis',(0.,0.,1.));
#378=DIRECTION('ref_axis',(1.,0.,0.));
#379=DIRECTION('',(0.,1.,0.));
#380=DIRECTION('center_axis',(0.,0.,1.));
#381=DIRECTION('ref_axis',(1.,0.,0.));
#382=DIRECTION('center_axis',(-0.998629534754574,0.,0.0523359562429438));
#383=DIRECTION('ref_axis',(0.,-1.,0.));
#384=DIRECTION('',(0.,1.,0.));
#385=DIRECTION('center_axis',(-0.998629534754574,0.,0.0523359562429438));
#386=DIRECTION('ref_axis',(0.0523359562429438,0.,0.998629534754574));
#387=DIRECTION('center_axis',(0.,0.,1.));
#388=DIRECTION('ref_axis',(1.,0.,0.));
#389=DIRECTION('center_axis',(0.,0.,-1.));
#390=DIRECTION('ref_axis',(1.,0.,0.));
#391=DIRECTION('center_axis',(0.,-1.,0.));
#392=DIRECTION('ref_axis',(-1.,0.,0.));
#393=DIRECTION('center_axis',(0.,0.,1.));
#394=DIRECTION('ref_axis',(1.,0.,0.));
#395=DIRECTION('center_axis',(0.,0.,1.));
#396=DIRECTION('ref_axis',(1.,0.,0.));
#397=DIRECTION('',(0.,0.,-1.));
#398=DIRECTION('center_axis',(0.,0.,1.));
#399=DIRECTION('ref_axis',(1.,0.,0.));
#400=DIRECTION('center_axis',(-0.998629534754574,0.,0.0523359562429438));
#401=DIRECTION('ref_axis',(0.0523359562429438,0.,0.998629534754574));
#402=DIRECTION('center_axis',(0.,0.,1.));
#403=DIRECTION('ref_axis',(1.,0.,0.));
#404=DIRECTION('center_axis',(0.,0.,1.));
#405=DIRECTION('ref_axis',(1.,0.,0.));
#406=DIRECTION('center_axis',(0.,0.,1.));
#407=DIRECTION('ref_axis',(1.,0.,0.));
#408=DIRECTION('center_axis',(-0.998629534754574,0.,0.0523359562429438));
#409=DIRECTION('ref_axis',(0.,-1.,0.));
#410=DIRECTION('',(0.,1.,0.));
#411=DIRECTION('',(0.,1.,0.));
#412=DIRECTION('center_axis',(0.,0.,1.));
#413=DIRECTION('ref_axis',(1.,0.,0.));
#414=DIRECTION('center_axis',(0.,0.,1.));
#415=DIRECTION('ref_axis',(1.,0.,0.));
#416=CARTESIAN_POINT('',(0.,0.,0.));
#417=CARTESIAN_POINT('Origin',(-32.5,40.25,8.6));
#418=CARTESIAN_POINT('',(-31.25,41.5,8.6));
#419=CARTESIAN_POINT('',(-33.75,41.5,8.6));
#420=CARTESIAN_POINT('',(-33.75,41.5,8.6));
#421=CARTESIAN_POINT('',(-31.25,39.,8.6));
#422=CARTESIAN_POINT('',(-31.25,41.5,8.6));
#423=CARTESIAN_POINT('',(-33.75,39.,8.6));
#424=CARTESIAN_POINT('',(-31.25,39.,8.6));
#425=CARTESIAN_POINT('',(-33.75,39.,8.6));
#426=CARTESIAN_POINT('Origin',(-31.25,41.5,4.6));
#427=CARTESIAN_POINT('',(-31.3117572189413,41.5,4.6));
#428=CARTESIAN_POINT('',(-31.4165727775074,41.5,6.6));
#429=CARTESIAN_POINT('',(-31.3118701541713,41.5,4.60215493256167));
#430=CARTESIAN_POINT('',(-31.25,41.5,4.6));
#431=CARTESIAN_POINT('',(-31.875,41.5,4.6));
#432=CARTESIAN_POINT('',(-31.25,41.5,4.6));
#433=CARTESIAN_POINT('',(-33.75,41.5,4.6));
#434=CARTESIAN_POINT('',(-33.75,41.5,4.6));
#435=CARTESIAN_POINT('',(-33.6882427810587,41.5,4.6));
#436=CARTESIAN_POINT('',(-31.875,41.5,4.6));
#437=CARTESIAN_POINT('',(-33.5834272224926,41.5,6.6));
#438=CARTESIAN_POINT('',(-33.6847060304338,41.5,4.66748522210396));
#439=CARTESIAN_POINT('',(-31.875,41.5,6.6));
#440=CARTESIAN_POINT('Origin',(-31.25,39.,4.6));
#441=CARTESIAN_POINT('',(-31.25,39.,4.6));
#442=CARTESIAN_POINT('',(-31.25,39.625,4.6));
#443=CARTESIAN_POINT('',(-31.25,39.,4.6));
#444=CARTESIAN_POINT('Origin',(-33.75,39.,4.6));
#445=CARTESIAN_POINT('',(-31.4165727775074,39.,6.6));
#446=CARTESIAN_POINT('',(-31.3117572189413,39.,4.6));
#447=CARTESIAN_POINT('',(-31.3152939695662,39.,4.66748522210396));
#448=CARTESIAN_POINT('',(-33.5834272224926,39.,6.6));
#449=CARTESIAN_POINT('',(-33.125,39.,6.6));
#450=CARTESIAN_POINT('',(-33.6882427810587,39.,4.6));
#451=CARTESIAN_POINT('',(-33.6881298458287,39.,4.60215493256167));
#452=CARTESIAN_POINT('',(-33.75,39.,4.6));
#453=CARTESIAN_POINT('',(-33.125,39.,4.6));
#454=CARTESIAN_POINT('',(-33.75,39.,4.6));
#455=CARTESIAN_POINT('',(-33.125,39.,4.6));
#456=CARTESIAN_POINT('Origin',(-33.75,41.5,4.6));
#457=CARTESIAN_POINT('',(-33.75,40.875,4.6));
#458=CARTESIAN_POINT('Origin',(-32.5,40.25,4.6));
#459=CARTESIAN_POINT('',(-31.3117572189413,43.004646818244,4.6));
#460=CARTESIAN_POINT('',(-31.3117572189413,38.8190911978746,4.6));
#461=CARTESIAN_POINT('',(-31.3117572189413,37.495353181756,4.6));
#462=CARTESIAN_POINT('Origin',(-32.5,40.25,4.6));
#463=CARTESIAN_POINT('',(-31.3117572189413,38.8190911978746,4.6));
#464=CARTESIAN_POINT('Origin',(-31.312152245655,37.3881823957492,4.60753755871915));
#465=CARTESIAN_POINT('',(-31.4165727775074,43.0475320290502,6.6));
#466=CARTESIAN_POINT('',(-31.4165727775074,38.8190911978746,6.6));
#467=CARTESIAN_POINT('Origin',(-32.5,40.25,27.2730229235879));
#468=CARTESIAN_POINT('Origin',(-31.312152245655,37.3881823957492,4.60753755871915));
#469=CARTESIAN_POINT('',(-31.4165727775074,37.4524679709498,6.6));
#470=CARTESIAN_POINT('Origin',(-32.5,40.25,27.2730229235879));
#471=CARTESIAN_POINT('',(-31.4165727775074,38.8190911978746,6.6));
#472=CARTESIAN_POINT('Origin',(-32.5,40.25,6.6));
#473=CARTESIAN_POINT('',(-33.5834272224926,43.0475320290502,6.6));
#474=CARTESIAN_POINT('',(-33.5834272224926,41.6809088021254,6.6));
#475=CARTESIAN_POINT('Origin',(-32.5,40.25,6.6));
#476=CARTESIAN_POINT('Origin',(-33.687847754345,43.1118176042508,4.60753755871915));
#477=CARTESIAN_POINT('',(-33.6882427810587,43.004646818244,4.6));
#478=CARTESIAN_POINT('',(-33.6882427810587,41.6809088021254,4.6));
#479=CARTESIAN_POINT('Origin',(-32.5,40.25,27.2730229235879));
#480=CARTESIAN_POINT('Origin',(-32.5,40.25,9.9));
#481=CARTESIAN_POINT('',(-35.3,40.25,10.1));
#482=CARTESIAN_POINT('Origin',(-32.5,40.25,10.1));
#483=CARTESIAN_POINT('',(-35.5,40.25,9.9));
#484=CARTESIAN_POINT('Origin',(-35.3,40.25,9.9));
#485=CARTESIAN_POINT('Origin',(-32.5,40.25,9.9));
#486=CARTESIAN_POINT('Origin',(-32.5,40.25,4.6));
#487=CARTESIAN_POINT('',(-35.5,40.25,4.59999999999997));
#488=CARTESIAN_POINT('',(-35.5,40.25,4.6));
#489=CARTESIAN_POINT('',(-33.6882427810587,37.495353181756,4.6));
#490=CARTESIAN_POINT('Origin',(-32.5,40.25,4.6));
#491=CARTESIAN_POINT('',(-33.5834272224926,37.4524679709498,6.6));
#492=CARTESIAN_POINT('Origin',(-32.5,40.25,27.2730229235879));
#493=CARTESIAN_POINT('Origin',(-32.5,40.25,6.6));
#494=CARTESIAN_POINT('Origin',(-32.5,40.25,4.6));
#495=CARTESIAN_POINT('Origin',(-32.5,40.25,10.1));
#496=CARTESIAN_POINT('Origin',(-33.687847754345,43.1118176042508,4.60753755871915));
#497=CARTESIAN_POINT('',(-33.5834272224926,41.6809088021254,6.6));
#498=CARTESIAN_POINT('',(-33.6882427810587,41.6809088021254,4.6));
#499=CARTESIAN_POINT('Origin',(-32.5,40.25,6.6));
#500=CARTESIAN_POINT('Origin',(-32.5,40.25,4.6));
#501=UNCERTAINTY_MEASURE_WITH_UNIT(LENGTH_MEASURE(0.01),#505,
'DISTANCE_ACCURACY_VALUE',
'Maximum model space distance between geometric entities at asserted c
onnectivities');
#502=UNCERTAINTY_MEASURE_WITH_UNIT(LENGTH_MEASURE(0.01),#505,
'DISTANCE_ACCURACY_VALUE',
'Maximum model space distance between geometric entities at asserted c
onnectivities');
#503=(
GEOMETRIC_REPRESENTATION_CONTEXT(3)
GLOBAL_UNCERTAINTY_ASSIGNED_CONTEXT((#501))
GLOBAL_UNIT_ASSIGNED_CONTEXT((#505,#506,#507))
REPRESENTATION_CONTEXT('','3D')
);
#504=(
GEOMETRIC_REPRESENTATION_CONTEXT(3)
GLOBAL_UNCERTAINTY_ASSIGNED_CONTEXT((#502))
GLOBAL_UNIT_ASSIGNED_CONTEXT((#505,#506,#507))
REPRESENTATION_CONTEXT('','3D')
);
#505=(
LENGTH_UNIT()
NAMED_UNIT(*)
SI_UNIT(.MILLI.,.METRE.)
);
#506=(
NAMED_UNIT(*)
PLANE_ANGLE_UNIT()
SI_UNIT($,.RADIAN.)
);
#507=(
NAMED_UNIT(*)
SI_UNIT($,.STERADIAN.)
SOLID_ANGLE_UNIT()
);
#508=SHAPE_DEFINITION_REPRESENTATION(#509,#510);
#509=PRODUCT_DEFINITION_SHAPE('',$,#512);
#510=SHAPE_REPRESENTATION('',(#300),#503);
#511=PRODUCT_DEFINITION_CONTEXT('part definition',#516,'design');
#512=PRODUCT_DEFINITION('sc64_shell reworked','sc64_shell reworked v10',
#513,#511);
#513=PRODUCT_DEFINITION_FORMATION('',$,#518);
#514=PRODUCT_RELATED_PRODUCT_CATEGORY('sc64_shell reworked v10',
'sc64_shell reworked v10',(#518));
#515=APPLICATION_PROTOCOL_DEFINITION('international standard',
'automotive_design',2009,#516);
#516=APPLICATION_CONTEXT(
'Core Data for Automotive Mechanical Design Process');
#517=PRODUCT_CONTEXT('part definition',#516,'mechanical');
#518=PRODUCT('sc64_shell reworked','sc64_shell reworked v10',$,(#517));
#519=PRESENTATION_STYLE_ASSIGNMENT((#523));
#520=PRESENTATION_STYLE_ASSIGNMENT((#524));
#521=PRESENTATION_STYLE_ASSIGNMENT((#525));
#522=PRESENTATION_STYLE_ASSIGNMENT((#526));
#523=SURFACE_STYLE_USAGE(.BOTH.,#527);
#524=SURFACE_STYLE_USAGE(.BOTH.,#528);
#525=SURFACE_STYLE_USAGE(.BOTH.,#529);
#526=SURFACE_STYLE_USAGE(.BOTH.,#530);
#527=SURFACE_SIDE_STYLE('',(#531));
#528=SURFACE_SIDE_STYLE('',(#532));
#529=SURFACE_SIDE_STYLE('',(#533));
#530=SURFACE_SIDE_STYLE('',(#534));
#531=SURFACE_STYLE_FILL_AREA(#535);
#532=SURFACE_STYLE_FILL_AREA(#536);
#533=SURFACE_STYLE_FILL_AREA(#537);
#534=SURFACE_STYLE_FILL_AREA(#538);
#535=FILL_AREA_STYLE('Steel - Satin',(#539));
#536=FILL_AREA_STYLE('Plastic - Translucent Matte (Blue)',(#540));
#537=FILL_AREA_STYLE('Powder Coat - Rough (White)',(#541));
#538=FILL_AREA_STYLE('Plastic - Glossy (Black)',(#542));
#539=FILL_AREA_STYLE_COLOUR('Steel - Satin',#543);
#540=FILL_AREA_STYLE_COLOUR('Plastic - Translucent Matte (Blue)',#544);
#541=FILL_AREA_STYLE_COLOUR('Powder Coat - Rough (White)',#545);
#542=FILL_AREA_STYLE_COLOUR('Plastic - Glossy (Black)',#546);
#543=COLOUR_RGB('Steel - Satin',0.627450980392157,0.627450980392157,0.627450980392157);
#544=COLOUR_RGB('Plastic - Translucent Matte (Blue)',0.188235294117647,
0.231372549019608,0.588235294117647);
#545=COLOUR_RGB('Powder Coat - Rough (White)',0.964705882352941,0.964705882352941,
0.952941176470588);
#546=COLOUR_RGB('Plastic - Glossy (Black)',0.0980392156862745,0.0980392156862745,
0.0980392156862745);
ENDSEC;
END-ISO-10303-21;
